Mazhaneer Thullikal – Beautiful

Guitar tabs / chords for the beautiful song Mazhaneer Thullikar from the movie Beautiful 😉

This is a song I’ve been wanting to post for a long time. So apologies to everyone who requested me to do other songs. I will post all the requested songs. So don’t worry 😛 

Song: Mazhaneer Thullikal
Movie: Beautiful (2011)
Singer: Unni Menon
Music Director: Ratheesh Vegha

For the sake of simplicity, I’ve posted the chords with a capo (much easier to play). So if you don’t have a capo, I tell you – Go buy one immediately. You will never regret it. And your fingers will thank you 😀

Special thanks to Joseph Sajan for correcting me!

Capo 2nd Fret

Intro tabs

Asus2  – Do one Up strum and then play this:

E-------------------------------|
B-------------------------------|
G----2/4--2---------------------|
D--2----------------------------|
A-------------------------------|
E-------------------------------|

Em  – Do one Up strum and then play this:

E-------------------------------|
B-------------------------------|
G----2/4--2---------------------|
D--2----------------------------|
A-------------------------------|
E-------------------------------| 

D – Do one Down stum and play the higher B and E strings.

G (the bar one) – Similarly, one Down strum and higher B and E stings.

—————- 

Strumming:  DDUUDUD

Asus2            
Mazhaneer thullikal

Em 
Nin thanuneer muthukal

Asus2
Thanuvaayi peythidum

G
Kanavaayi thorunnidum

C                           Em
Venshanghile laya gaandharvamayi

C             G
Neeyente saarangiyil

Em          
Ithalidum naanathin

                  A 
Thenthulliyaayi

Em 
Kathiridum mohathin

                 A
Ponnolamaayi (mazhaneer)

E------------------------------|
B------------------------------|
G---2/4--2-0-------------------|
D------------2-0---------------|
A------------------------------|
E------------------------------| 

———-

Em
Raamegham pol


Vinthaaram pol

Asus2                 G
Neeyenthe akale nilppoo

Asus2            Am
Kaathare nin chundile

Em         C
Santhyil alinjidaam

Em                               A 
Viriyum chandralekha enthino

Am                    G      Em
Kaathu ninnennorthu njaan

(Mazhaneer)

Advertisements

Leave a Reply

Fill in your details below or click an icon to log in:

WordPress.com Logo

You are commenting using your WordPress.com account. Log Out / Change )

Twitter picture

You are commenting using your Twitter account. Log Out / Change )

Facebook photo

You are commenting using your Facebook account. Log Out / Change )

Google+ photo

You are commenting using your Google+ account. Log Out / Change )

Connecting to %s